By Myself taby | Linkin Park | Hudbiště.cz
Závadný obsah?
Linkin Park - By Myself

Zobrazeno: 128x
Zatím nikdo nehodnotil
Taby



Tuning: Drop D



Riff 1

e|-------------------------------------------------------------|

B|-------------------------------------------------------------|

G|-------------------------------------------------------------|

D|-0-0--00-0-0-(10)-00-0-0-(10)-00-0-0-(10)--------------------|

A|-0-0--00-0-0-(10)-00-0-0-(10)-00-0-0-(10)--------------------|

D|-0-0--00-0-0-(10)-00-0-0-(10)-00-0-0-(10)--------------------|



Riff 2

e|-------------------------------------------------------------|

B|-------------------------------------------------------------|

G|-------------------------------------------------------------|

D|--5-----h3--------5-----h3--------5------h3------------------|

A|-------------------------------------------------------------|

D|-------------------------------------------------------------|



Riff 3

e|-------------------------------------------------------------|

B|-------------------------------------------------------------|

G|-------------------------------------------------------------|

D|-0-0-(10)--0-0-1-00-0-0-(10)---------------------------------|

A|-0-0-(10)--0-0-1-00-0-0-(10)---------------------------------|

D|-0-0-(10)--0-0-1-00-0-0-(10)---------------------------------|

[ Tab from: http://www.guitaretab.com/l/linkin-park/23943.html ]

Riff 4

e|-------------------------------------------------------------|

B|-------------------------------------------------------------|

G|-------------------------------------------------------------|

D|-0--0-0-3--3-3-2---------------------------------------------|

A|-0--0-0-3--3-3-2---------------------------------------------|

D|-0--0-0-3--3-3-2---------------------------------------------|



Riff 5

e|-------------------------------------------------------------|

B|-------------------------------------------------------------|

G|-------------------------------------------------------------|

D|-------------------------------------------------------------|

A|-0*0*-0*-0*0*--

Proč se registrovat?

  • soutežte o věcné ceny
  • sbírejte body a získávejte za ně odměny
  • nahrávejte fotky vašich oblíbených interpetů
  • přidávejte texty, alba, tagy, noty, biografie
  • chatujte, staňte se součástí naší bezva komunity

  • CHCI SE ZAREGISTROVAT

Další z alba

Hudbiště player

  Vybrat si žánry »

Nejbližší koncert

koncert
Kdy:
Kde:
Predprodej vstupenek zde Ticketpro.cz
0.19306302070618s